Заходи -




Страница 1 из 11
Форум аниме с рутуба » Форум Музыки » Форум Гитаристов » Бас гитара для новичков. ("прогулки", рифы, квинты, гаммы)
Бас гитара для новичков.
BenderДата: Воскресенье, 27.03.2011, 11:18 | Сообщение # 1
Анимешник
Группа: Анимешники
Сообщений: 131

Награды: 10
Репутация: 54
Статус: Offline
Для начала, чтобы пальцы левой руки привыкли к ширене ладов, стоит воспользоваться упрожнением "Прогулка".
"Прогулкой" называется любая непрерывная мелодическая последовательность.
Ее пример :

G---------|---------|---------|---------|
D-------2-|-3-2-----|-------3-|-5-3-2---|
A---2-5---|-----5-2-|---2-5---|-------5-|
E-3--- - ---|---------|-3-------|---------|

G-------2-|-3-2-----|---------|
D---2-5---|-----5-2-|---------|
A-3-------|---------|---------|
E-- -------|---------|-3-------|
Это очень простая с технической точки зрения прогулка. Играя его, не используйте открытые струны. Заучив один раз, вы сможете исполнять его в любой тональности, всегда можно сместиться на 2 лада, чтобы играть на D тот же самый рисунок. Таким способом можно играть огромное число песен.

G---|---|---|---|---|---|---|---
D---|---|---|-6-|-7-|---|-8-|---
A---|---|---|-3-|---|---|-5-|---
E---|---|---|---|-1-|---|--- |---
Рифы
Большинство песен содержат узнаваемые рифы.Но, например, “Feelin’ Alright” не имеет фирменного рифа, но духовые партии Джо Кокера делают песню запоминающейся. Этот риф довольно быстрый, но простой. В его основе лежит :
G--------------------|---------------7-9-|-----------
D----------------7-9-|-7--7------7-9-----|-----------
A---7--7-----7-9-----|----- --------------|-7--7------
E--------------------|-------------------|-----------
Еще один простой риф
G---------------|----|
D---------------|-4--|
A--7------4-5-7-|----|
E-----5-7-------|----|

Квинты
Также как риф-прогулка является классикой для рок-н-ролла, использование нижних квинт очень распространено в народных песнях и польках. Обычно основная нота аккорда играется на первой доле, а пятая (квинта) - на третьей. При обычной настройке более низкая пятая нота находится на том же ладу что и основная, но на более низкой струне.
Следующий пример иллюстрирует грамотное использование нижних квинт:
G---------|---------|---------|------------|---|
D-5-5-----|---------|---------|--------2-4-|-5-|
A---------|-5-5-----|-3-3-----|- 3--3-3-----|---|
E-----3-3-|-----5-5-|-----3-3-|------------|---|
(Take it Easy Eagles)

Гаммы
Гамма Ля-мажор :
G--------------|--------------|
D--------------|-----4--6--7--|
A--------4--5--|--7-----------|
E--5--7--------|--------------|

До- Ре-Ми(на A) :
G--------------|--------------|
D--------------|--------------|
A--------4-----|--4-------4---|
E--5---7----5--|------5-------|
Изуче ние аппликатурных шаблонов, не содержащих игры открытых струн очень важно, поскольку это дает вам независимость от тональности. Но вы должны знать несколько гамм, включающих открытые струны. Вот, к примеру, гамма G-мажор с открытыми струнами.
G--------------|-----------0--|
D--------------|--0--2--4-----|
A-----0--2--3--|--------------|
E--3-----------|-------------- |
Ля-мин ор:
G--------------|--------------|
D--------------|--------5--7--|
A-----------5--|--7--8--------|
E--5--7--8-----|--------------|

П рименяйте эти приемы в различных песнях. Чем больше вы будете практиковаться, тем лучше сможете их использовать. Самое важное - уметь играть песни! Гаммы это лишь инструмент!

Полезные ссылки:
http://www.911tabs.com/bass_tabs/ - табы, со временем лучше не пользоваться готовыми табами, а стараться подбирать самому
http://jazzochek.info/index.html
http://www.ultimate-guitar.tv/bass_lessons/index_3.html - набор коротких роликов с упражнениями
http://www.activebass.com/lessons/lessdir.asp - миди примеры разных стилей! табулатуры и метроном!
очень полезно для занятий!!!

Сообщение отредактировал Bender - Воскресенье, 27.03.2011, 11:18
BulbameshДата: Понедельник, 25.04.2011, 22:20 | Сообщение # 2
Аниме-Man
Группа: Анимешники
Сообщений: 290

Награды: 39
Репутация: 261
Статус: Offline
Bender, ого ты оказывается на Басу играешь?! surprised
BenderДата: Понедельник, 25.04.2011, 23:47 | Сообщение # 3
Анимешник
Группа: Анимешники
Сообщений: 131

Награды: 10
Репутация: 54
Статус: Offline
Bulbamesh, да, поигрываю biggrin
ZnaikaДата: Пятница, 10.06.2011, 18:48 | Сообщение # 4
Анимешник
Группа: Анимешники
Сообщений: 184

Награды: 21
Репутация: 170
Статус: Offline
Ребята а можете там мелодио на бас гитаре выложить просто я одну бас гитару никогда не слушала :'( и очень интересно послушать happy
GreemJ0yДата: Пятница, 11.11.2011, 00:19 | Сообщение # 5
Активный
Группа: Анимешники
Сообщений: 109

Награды: 4
Репутация: 18
Статус: Offline
http://www.youtube.com/watch?v=Zze0fEDpxiU Вот смотри я сейчас именно эту песню разучиваю, тут клёвый бас, его слышно хорошо, и ритм обалденный )))
HeiДата: Суббота, 12.11.2011, 00:59 | Сообщение # 6
Анимешник
Группа: Анимешники
Сообщений: 143

Награды: 5
Репутация: 57
Статус: Offline
GreemJ0y, Нормально, но мне больше нравиться японский бас, если почти во всех группах бас не слышно то у японцев он четко выделен!
А что у тебя за бас?
GreemJ0yДата: Суббота, 12.11.2011, 22:48 | Сообщение # 7
Активный
Группа: Анимешники
Сообщений: 109

Награды: 4
Репутация: 18
Статус: Offline
Ibanez gsr190. Да согласен во многих японских песнях клёвый бас! Вот эта нравиться песня и бас прикольный Aqua Timez - Velonica
HeiДата: Воскресенье, 13.11.2011, 18:48 | Сообщение # 8
Анимешник
Группа: Анимешники
Сообщений: 143

Награды: 5
Репутация: 57
Статус: Offline

Добавлено (13.11.2011, 18:48)
---------------------------------------------
Классная вещь!
GreemJ0y, А как у тебя дело состоят со слэпом?

GreemJ0yДата: Воскресенье, 13.11.2011, 21:49 | Сообщение # 9
Активный
Группа: Анимешники
Сообщений: 109

Награды: 4
Репутация: 18
Статус: Offline
Трудновато осваивается, там нужна правильная постановка рук, но если долго мучиться то что ни будь получиться, поэтому кривовато, но выходить понемножку ) Вот здесь бас тоже клёвый http://www.youtube.com/watch?v=CDl9ZMfj6aE&ob=av2e
HeiДата: Воскресенье, 13.11.2011, 23:28 | Сообщение # 10
Анимешник
Группа: Анимешники
Сообщений: 143

Награды: 5
Репутация: 57
Статус: Offline
GreemJ0y, Да это бомба!

Добавлено (13.11.2011, 23:28)
---------------------------------------------
А как насчет SOAD?

GreemJ0yДата: Вторник, 20.12.2011, 16:05 | Сообщение # 11
Активный
Группа: Анимешники
Сообщений: 109

Награды: 4
Репутация: 18
Статус: Offline
Ну есть у них клёвые песни, так сказать классика, но я их особо не слушаю! Мне больше нравиться что нить топо The Killers, Thousand Foot Krutch, The Offspring, Hoobastank !!! А вообще больше люблю репчик )))

Добавлено (20.12.2011, 16:05)
---------------------------------------------
http://www.youtube.com/watch?v=CkJIGo3xCnU&feature=player_embedded#!
Вот это вообще шедевр !!!

Форум аниме с рутуба » Форум Музыки » Форум Гитаристов » Бас гитара для новичков. ("прогулки", рифы, квинты, гаммы)
Страница 1 из 11
Поиск:









Мы приветствуем ценителей аниме на форуме проекта "Аниме с рутуба". Мы надеемся что на нашем аниме форуме вы найдёте ответы на свои вопросы. Наш аниме форум разделён на основные разделы: основной форум Аниме с рутуба, AMV - Anime Music Video, Переводы аниме (субтитры), Озвучка аниме, Анимешники, Цитатник, Творчество анимешников, Наши проекты, Анимация Аниме, Наработки по EL2, Форум Музыки, Форум для Анимешниц, Форум для Анимешников, Советы на все случаи жизни, Наши конкурсы! и Няшные и аниме игры.
Проект Аниме с рутуба © 2010 - 2017 / Дизайн страниц Mimichi / Верстка сайта VideoLiver